Black Sabbath

Na gitaru, keyboard ...
Napísať odpoveď
Užívateľov profilový obrázok
swiftas
Registrovaní užívatelia
Príspevky: 221
Dátum registrácie: 10 Mar 2007, 20:11
Bydlisko: Nové Zámky
Kontaktovať užívateľa:

Black Sabbath

Príspevok od užívateľa swiftas » 13 Máj 2007, 12:58

Black Sabbath - A National Acrobat




Transcription by Thomas Simillion (mailto:hansolo@mail.dma.be)

This may not be the exact version, but is definitely a way to play it.



Tune all strings 2 frets down



Used symbols :



v - vibrato

h - hammer next note

p - pull off to next note

b - bend to pitch next note

r - release bend

> - articulate

- slide high to low/next note

/ - slide low to high/next note

P.M.- palm muted



Main Riff (1):



D-------------------------------------------------------

A-------------------------------------------------------

F------->->---------------------->->--5h4---------------

C--0h2--2-2--0h2--0h2--5-4--0h2--2-2------5--0-4h5------

G--------------------------------------------------5(v)-

D-------------------------------------------------------



Fill 1 :



D------------------------------------------------------

A------------------------------------------------------

F------------7-7---------------------------------------

C--2-2--5-5--7-7--5-5----------------------------------

G--2-2--5-5--5-5--5-5----------------------------------

D--0-0--3-3-------3-3----------------------------------



I am the world that hides...





Riff 2 :



I think Iommi uses some kind of device here :



D----------------------------------------------------

A----------------------------------------------------

F-------------------------------12-----------12----

C--0h2--0-0h2-0h2-5-4-0--0-0h2--12--0-0-0-0--12----

G----------------------------------------------------

D----------------------------------------------------

|- P.M.-|



Main Solo (The one on the right track) :



D--------------------------------------14p11----------------------------

----

A--14p11----14p11-13-14p11-13-14p11----------14--14p11----14p11---------

----

F--------11-------------------------13-----------------11-------13-13-13

p11-

C-----------------------------------------------------------------------

----

G-----------------------------------------------------------------------

----

D-----------------------------------------------------------------------

----



D-------------------------14b16-14b16-14b16r14-11----11-11--------------

----

A-------------------------------------------------14-------14-----------

----

F----13-13-13-13b14r13-11-------------------------------------151311--

----

C-13--------------------------------------------------------------------

----

G-----------------------------------------------------------------------

----

D-----------------------------------------------------------------------

----



D----------------------------------13b14-13b14-13b14-13b14-13b14-11----1

1---

A-------------------------------------------------------------------14--

----

F-13b15r13-11-13-13b15r13-11--------------------------------------------

----

C----------------------------13-13--------------------------------------

----

G-----------------------------------------------------------------------

----

D-----------------------------------------------------------------------

----



D----11-11---------------------------------------14b16-14b16-14b16r14-1

1---

A-14-------14b16-14-11--------------------------------------------------

----

F----------------------13p11-13p11-13-13b14r13-11-----------------------

----

C-----------------------------------------------------------------------

----

G-----------------------------------------------------------------------

----

D-----------------------------------------------------------------------

----



D-14p11-----------------------------------------------------------------

----

A-------14-14p11----14p11-----------------------------------------------

----

F----------------13-------13-13b15r13-11-13-13b15r13-11-----------------

----

C-------------------------------------------------------13-11-13-------

----

G-----------------------------------------------------------------------

----

D-----------------------------------------------------------------------

----





Fill 2 :

This part 3 x

D-------------------------------------|---------------

A-------------------------------------|---------------

F--7--7-7--2--------7--7-7--2---------|---------------

C--7--7-7--2-----5--7--7-7--2-----5---|-/9-9-9-9------

A--5--5-5--0--0--5--5--5-5--0--0--5---|-/9-9-9-9------

D----------------3----------------3---|-/7-7-7-7------



And into riff 3a :



D-----------------------------------------------------

A-----------------------------------------------------

F-----------------------------------------------------

C-----0--2/4--2-----0--2/4/6--2-----0--2/4--2--0------

G--4-------------4---------------4----------------4---

D-----------------------------------------------------



Riff 3b:



D-----------------------------------------------------

A-----------------------------------------------------

F-----0--2/4--2-----0--2/4/6--2-----0--2/4--2--0------

C--4-------------4---------------4----------------4---

G-----------------------------------------------------

D-----------------------------------------------------





...And into some semisolo - psychedelic things that I haven't

transcribed.



Here's the lyrics / songflow :



Riff 1 x 2

Riff 1 x 2 (second guitar enters)



Fill 1 I am the world that hides

/Riff 1 the universal secret of all time

Fill 1 Destruction of the empty spaces

/Riff1 is my one and only crime



a

n I've lived a thousand times

d I found out what it means to be believed

The thoughts and images,

s The unborn child that never was conceived

o

When little worlds collide

o I'm trapped inside my embryonic cell

n And flashing memories

are cast into the never-ending well

u

n The name that scorns the face

t The child that never sees the cause of man

i The deathly darkness that belies

l the fate of those who never ran

.

.

.

Riff 2 x...



Riff 2 Well I know it's hard for you to know the reason why

. And I know you'll understand more when it's time to die

.

. Don't believe the live you have will be the only one

You have to let your body sleep to let your soul in my heart

(I want you to listen,I try to get through)



Love has given life to you and now it's your concern

Unseen eye of inner life will make your soul return



Still I look but not to touch

The seeds of life are sown

Curtain of the future falls

The secret stays unknown

Solo

w/Riff2

Just remember love is life

And hate is living death

Treat your life for what it's worth

And live for every breath



Looking back I've lived and learned

But now I'm wondering

Here I wait and only guess

What this next life will bring

(Ha Ha !)

Fill 2



Riff 3a x2

Riff 3b

Riff 3a

...
Obrázok

Užívateľov profilový obrázok
swiftas
Registrovaní užívatelia
Príspevky: 221
Dátum registrácie: 10 Mar 2007, 20:11
Bydlisko: Nové Zámky
Kontaktovať užívateľa:

Black Sabbath - Black Sabbath

Príspevok od užívateľa swiftas » 13 Máj 2007, 12:59

|------------------------|-------------|--

|------------------------|-------------|--

|------------------------|-------------|--

|--0--5------------------|---0--5------|--

|-------45454545454545/-|--------4----|--

|--3---------------------|---3---------|--





|-------------------------|--

|-------------------------|--

|-------------------------|--

|-------------------------|--

|---------3-5-6-3-5---3-5-|--

|-3-3-3-6-----------6-----|--



Solo:

|----------------------|------------------------------------------3--

|----------------------|-----------------------3-----3~~~---3-----3--

|----------------------|------------3~~~-------5^-----------5^-------

|-5p3---5-----(5)^-5-5-|-3~~----3h5----------------------------------

|-----5----------------|---------------------------------------------

|----------------------|---------------------------------------------







|-----------------|-------15----15--x--|----------------18^---18^---

|--3--6---8--10---|-----15---18^-------|-18^--18^----15-------------

|--5^-8^-10^-12^--|--17^---------------|----------------------------

|-----------------|--------------------|----------------------------

|-----------------|--------------------|----------------------------

|-----------------|--------------------|----------------------------







|--15-18p15--18p15---|-18^-15h18p15------15-15-----15-----------

|----------18-----18-|-------------18-18-------18^--------------

|--------------------|------------------------------------------

|--------------------|------------------------------------------

|--------------------|------------------------------------------

|--------------------|------------------------------------------







|--15------------15-----15-----15-----15-----15-----15-----15-------

|-----18-15----15-----15-----15-----15-----15-----15-----15--15~~---

|-----------17^----17^----17^----17^----17^----17^----17^-----------

|-------------------------------------------------------------------

|-------------------------------------------------------------------

|-------------------------------------------------------------------







|----------15---------|----------------18^^^18p15---18^----15h18p15-----

|--------15--------15-|-18^^----18^^--------------------------------18--

|--14-17^----17-18----|-----15------15-----------(17)-------------------

|---------------------|-------------------------------------------------

|---------------------|-------------------------------------------------

|---------------------|-------------------------------------------------









|-15h18p15--18p15--15h18p15h18-15h18p15h18-15h18p15h18-15h18p15h18-18^--

|---------18-----18-----------------------------------------------------

|-----------------------------------------------------------------------

|-----------------------------------------------------------------------

|-----------------------------------------------------------------------

|-----------------------------------------------------------------------









|-18^^^--18p15---------15-15--------------|------15-----------------------

|-------------18-18-18^------18-15--------|----15--18p15------------------

|---------------------------------17-15^--|-17^---------17-15^------------

|-----------------------------------------|---------------------17p15h17--

|-----------------------------------------|-------------------------------

|-----------------------------------------|-------------------------------





|---------------15-----15-----15----------------------

|-------------15-----15-----15---18^-18^-18^----------

|-------15-17^----17^----17^--------------------------

|--15h17----------------------------------------------

|-----------------------------------------------------

|-----------------------------------------------------





Ending: with Wah:

|-3----------------------------3---------------------------

|-3----------------------------3---------------------------

|-0--------------3-------------0---------------3-----------

|-0--------------3-------------0---------------3-----------

|----------------1-----------------------------1-----------

|-3--------------1-------------3---------------1-----------







|----------------------------------------------------------

|----------------------------------------------------------

|-5-----5-5-5-5--5-5-5--3---3-3-3-3---3-3-3---5------------

|-5-----5-5-5-5--5-5-5--3---3-3-3-3---3-3-3---5------------

|-5-----5-5-5-5--5-5-5--1---1-1-1-1---1-1-1---5------------

|-3-----3-3-3-3--3-3-3--1---1-1-1-1---1-1-1---3------------
Obrázok

Užívateľov profilový obrázok
swiftas
Registrovaní užívatelia
Príspevky: 221
Dátum registrácie: 10 Mar 2007, 20:11
Bydlisko: Nové Zámky
Kontaktovať užívateľa:

Black Sabbath - N.i.b

Príspevok od užívateľa swiftas » 13 Máj 2007, 13:00

EMI 2krát D
Some people say my love cannot be true

pak postupovat stejně mezihra je EMI

DYour love for me has just got to be EMIreal
Obrázok

Užívateľov profilový obrázok
swiftas
Registrovaní užívatelia
Príspevky: 221
Dátum registrácie: 10 Mar 2007, 20:11
Bydlisko: Nové Zámky
Kontaktovať užívateľa:

Black Sabbath - Paranoid

Príspevok od užívateľa swiftas » 13 Máj 2007, 13:01

EmFinished with my woman `cause she Dcouldn`t help me Gwith Dmy Emmind.
People think I`m insane because DI am frowning Gall Dthe Emtime.
2x Em C D Em.

EmAll day long I think of things but Dnothing seems to GsaDtisEmfy. Think I`ll loose my mind if I don`t Dfind something to GpaDciEmfy.
Can you help me? DNeed you for my Embrain. Oh Dyeah.
2x Em D G D Em

EmI need someone to show me the Dthings in life that GI Dcan`t Emfind.
EmI can`t see the things make true Dhappiness I Gmust Dbe Emblind. 2x Em D G D Em

EmMake a joke and I will sigh and Dyou will laugh and GI Dwill Emcry.
Happiness I cannot feel and Dlove to me is Gso DunEmreal.
2x Em C D Em

EmAnd so you hear these words now Dtellin you now now Gof Dmy Emstate.
I tell you to enjoy life I Dwish I could but Git`s Dtoo Emlate.
2xEm D G D Em
Obrázok

Napísať odpoveď

Kto je prítomný

Užívatelia prezerajúci toto fórum: Žiadny pripojení užívatelia a 1 neregistrovaný