Nirvana

Na gitaru, keyboard ...
Užívateľov profilový obrázok
swiftas
Registrovaní užívatelia
Príspevky: 221
Dátum registrácie: 10 Mar 2007, 20:11
Bydlisko: Nové Zámky
Kontaktovať užívateľa:

Nirvana

Príspevok od užívateľa swiftas » 19 Máj 2007, 09:12

Emi, G, Emi, G, Emi, G, Emi, G

EmiI Gneed an Emieasy Gfriend
EmiI do Gwith a Emiear to Glend
EmiI do Gthink you Emifit this Gshoe
EmiI do Gwhat you Emihave a Gclue
C#miI'll take G#advantage F#while
C#miYou hang me G#out to F#dry
EBut I can't see you Aevery Cnight EmifreeG, Emi, G
EmiI doG, Emi, G
EmiI'm Gstanding Emiin your Glight
EmiI do Ghope you Emihave the Gtime
EmiI do Gpick up Eminumber Gtwo
EmiI do Gkeep a Emidate with Gyou

C#miI'll take G#advantage F#while
C#miYou hang me G#out to F#dry
EBut I can't see you Aevery Gnight EmifreeG, Emi, G
EmiI doG, Emi, G

Solo:

E --------------------------------|

B -----------------9-9-9-12-12-12-|

G -----------------9-9-9-12-12-12-|

D -------5-7-0-9-9-9-9-9-12-12-12-|

A ---5-7--------------------------|

E -0------------------------------|




EmiI Gneed an Emieasy Gfriend
EmiI do Gwith a Emiear to Glend
EmiI do Gthink you Emifit this Gshoe
EmiI do Gwhat you Emihave a Gclue
C#miI'll take G#advantage F#while
C#miYou hang me G#out to F#dry
EBut I can't see you Aevery Cnight EmifreeG, Emi, G

C#miI'll take G#advantage F#while
C#miYou hang me G#out to F#dry
EBut I can't see you Aevery Cnight
EI can't see you Aevery Cnight
EmiFreeG, Emi, G
EmiI do G, Emi, G
EmiI do G, Emi, G
EmiI doG, Emi, G, Emi
Naposledy upravil/-a swiftas v 19 Máj 2007, 09:19, upravené celkom 1 krát.
Obrázok

Užívateľov profilový obrázok
swiftas
Registrovaní užívatelia
Príspevky: 221
Dátum registrácie: 10 Mar 2007, 20:11
Bydlisko: Nové Zámky
Kontaktovať užívateľa:

Nirvana - About A Girl (unplugged Od Esteldila)

Príspevok od užívateľa swiftas » 19 Máj 2007, 09:13

Emi,G,Emi,G,Emi,G,Emi,G

EmiI nGeed an Emieasy Gfriend
EmiI do... wGith an Emiear to lGend
EmiI do... tGhink you'l Emil fit thiGs shoe
EmiI do... wGon't you Emihave a Gclue?

F#I'll take advantage Gwhile
You hang me 335543out to dry
EmiBut I can't see you e Avery Gnight
Emifree G, Emi, G
IEmi do G, Emi, G

EmiI doG...Emi, G
EmiI'm sGtanding iEmin your lGine
EmiI do... Ghope you hEmiave the Gtime
EmiI do... Gpick a nEmiumber Gto
EmiI do... kGeep a dEmiate with Gyou


F#I'll take advantage Gwhile
You hang me 335543out to dry
EmiBut I can't see you e Avery Gnight
Emifree G, Emi, G
IEmi do G, Emi, G



Sólo:

E|---------------------------------|

H|-----------------------12-12-12-------|

G|----------------9--9-9-12-12-12-------|

D|---------5-7----9--9-9-12-12-12-------|

A|-----5-7------------------------------|

E|--0-----------------------------------|





F#, G, 335543, Emi, A, G, Emi, G, Emi, G, Emi, G, Emi, G

EmiI nGeed an Emieasy Gfriend
EmiI do... wGith an Emiear to lGend
EmiI do... tGhink you'l Emil fit thiGs shoe
EmiI do... wGon't you Emihave a Gclue?

F#I'll take advantage Gwhile
You hang me 335543out to dry
EmiBut I can't see you e Avery Gnight
EmiBut I can't see you e Avery Gnight
Emifree G, Emi, G
IEmi do G, Emi, G
IEmi do G, Emi, G
IEmi do G, Emi, G
IEmi do G,
Obrázok

Užívateľov profilový obrázok
swiftas
Registrovaní užívatelia
Príspevky: 221
Dátum registrácie: 10 Mar 2007, 20:11
Bydlisko: Nové Zámky
Kontaktovať užívateľa:

Nirvana - About A Girl - Zrozumiteľne Presne

Príspevok od užívateľa swiftas » 19 Máj 2007, 09:13

EmiI nGeed an Emieasy Gfriend
EmiI do... wGith an Emiear to lGend
EmiI do... tGhink you'lEmil fit thiGs shoe
EmiI do... wGon't you Emihave a Gclue?

C#I'll take G#advantage F#while
C#You hang me G#out to F#dry
EmiBut I can't sGee you eDvery Cnight
EmifreeG, Emi, G!

EmiI doG...Emi, G
EmiI'm sGtanding iEmin your lGine
EmiI do... Ghope you hEmiave the Gtime
EmiI do... Gpick a nEmiumber Gto
EmiI do... kGeep a dEmiate with Gyou

C#I'll take G#advantage F#while
C#You hang me G#out to F#dry
EmiBut I can't sGee you eDvery Cnight
EmifreeG, Emi, G!






Sólo:

eb|---------------------------------------|

Bb|---------------------------------------|

Gb|--------------7-7---9--9-9/12-12-------|

Db|---------5-7--7-7---9--9-9/12-12-------|

Ab|-----5-7-------------------------------|

Eb|--0------------------------------------|





C#, G#, F#, C#, G#, F#, Em, G, D, C, Em, G, Em, G, Em, G, EmiI DGo...

EmiI nGeed an Emieasy Gfriend
EmiI do... wGith an Emiear to lGend
EmiI do... tGhink you'lEmil fit thiGs shoe
EmiI do... wGon't you Emihave a Gclue?

C#I'll take G#advantage F#while
C#You hang me G#out to F#dry
EmiBut I can't sGee you eDvery Cnight
EmifreeG, Emi, G!
EmiI dGo.Emi..G
EmiI dGo.Emi..G
EmiI dGo.Emi..G
Em, G, Em, GI Em...do...






Em G C# G# F# D C

eb|-0-----3----------------------2-----------|

Bb|-0-----0----------------------3-----------|

Gb|-0-----0----6-----------------2----5------|

Db|-2-----0----6-----6------4----0----5------|

Ab|-2-----2----4-----6------4---------3------|

Eb|-0-----3----------4------2----------------|



REnDY
Obrázok

Užívateľov profilový obrázok
swiftas
Registrovaní užívatelia
Príspevky: 221
Dátum registrácie: 10 Mar 2007, 20:11
Bydlisko: Nové Zámky
Kontaktovať užívateľa:

Nirvana - All apologies

Príspevok od užívateľa swiftas » 19 Máj 2007, 09:14

CWhat else should I be
All apologies
What else could I say
Everyone is gay
What else could I write
I don't have a right
What else should I be
All apologies

F5In the sun
In the sun I feel as one
In the sun
In the sun
I'm Gmarried
Buried

CI wish I was like you
Easily amused
Find my nest of salt
Everything is my fault
I'll take all the blame
Aqua saefoam shame
Sunburn with freezeburn
Choking on the ashes of her enemy

G5In the sun
In the sun I feel as one
In the sun
In the sun
I'm Amarried
Married
Married
Buried yea yea yea yea

CAll in all is all we are (13x)
Obrázok

Užívateľov profilový obrázok
swiftas
Registrovaní užívatelia
Príspevky: 221
Dátum registrácie: 10 Mar 2007, 20:11
Bydlisko: Nové Zámky
Kontaktovať užívateľa:

Nirvana - Aneurysm

Príspevok od užívateľa swiftas » 19 Máj 2007, 09:14

2#

e------------------------------------

h------------------------------------

g---------------5--------4--------2--

d-----4-------5---5----4---4----2---2

a---4---4---3--------2--------0------

e-2----------------------------------



e-----------------------------------

h-----------------------------------

g-1-1-1-1-2-2-2-2-3-3-3-3-4-4-4-4-5-........az po 12(?)

d-----------------------------------

a-----------------------------------

e-----------------------------------



e----------------------------------- 8#

h-----------------------------------

g-----------5-5-5-5-4-4-4-4-2-2-2-2-

d-4----4-4--3-3-5-5-4-4-4-4-2-2-2-2-

a-4----4-4--3-3-3-3-2-2-2-2-0-0-0-0-

e-2----2-2--------------------------



e-----------------------------------

h-----------------------------------

g-1-1-1-1-2-2-2-2-3-3-3-3-4-4-4-4-5-........az po 12(?)

d-----------------------------------

a-----------------------------------

e-----------------------------------





e------------------------------

h------------------------------

g------------------------------

d-------------------------------

a-----4----------4---- 6# a potom hned

e-2-2---2----2-2---2--



e---------------------------------

h---------------------------------

g----------------------------------

d-7-7-7-7-7-7-7-7-7-7-7-7-7-7-7-7-7 tieto 2 casti 2# a

a-7-7-7-7-7-7-7-7-7-7-7-7-7-7-7-7-7 potom zacina aj

e-5-5-5-5-5-5-5-5-5-5-5-5-5-5-5-5-5 spev



verse

e------------------------------

h------------------------------

g------------------------------

d-------------------------------

a-----4----------4----

e-2-2---2----2-2---2--



Come on over and do the twist...

e---------------------------------

h---------------------------------

g----------------------------------

d-7-7-7-7-7-7-7-7-7-7-7-7-7-7-7-7-7

a-7-7-7-7-7-7-7-7-7-7-7-7-7-7-7-7-7

e-5-5-5-5-5-5-5-5-5-5-5-5-5-5-5-5-5

Aahhhh........................



ref.



e---------------------------------

h---------------------------------

g----------2-2-2-2--4-4--2-2-2-2--

d-4---4-4--2-2-2-2--4-4--2-2-2-2-- 8#

a-4---4-4--0-0-0-0--2-2--0-0-0-0--

e-2---2-2-------------------------

Beat me out of me! ....





opat verse a ref.





potom





e-----------------------------------

h-----------------------------------

g-1-1-1-1-2-2-2-2-3-3-3-3-4-4-4-4-5-........az po 12(?)

d-----------------------------------

a-----------------------------------

e-----------------------------------





e-------------------------------------

h-------------------------------------

g-----------5-5-5-5--4-4-4-4--2-2-2-2- 10#

d--4-4-4-4--5-5-5-5--4-4-4-4--2-2-2-2-

a--4-4-4-4--3-3-3-3--2-2-2-2--0-0-0-0-

e--2-2-2-2----------------------------



She gives a pauper stray to my heart!



e-----------------------------------

h-----------------------------------

g-1-1-1-1-2-2-2-2-3-3-3-3-4-4-4-4-5-........az po 12(?)

d-----------------------------------

a-----------------------------------

e-----------------------------------



THE END



slova



Come on over do the twist Aahhh

Over do it have a fit Aahhh

Love you so much makes me sick Aahhh

Come on over do the twist Aahhh



Beat me out of me!



Come on over do the twist Aahhh

Over do it have a fit Aahhh

Come on over shoot the shit Aahhh

Come on over do the twist Aahhh



Beat me out of me!



She gives a pauper stray to my heart!





P.S ak sa vam nieco nezda (najma v texte,robil som to len z pocutia) dajte o sebe vediet.



Peace with you all!
Obrázok

Užívateľov profilový obrázok
swiftas
Registrovaní užívatelia
Príspevky: 221
Dátum registrácie: 10 Mar 2007, 20:11
Bydlisko: Nové Zámky
Kontaktovať užívateľa:

Nirvana - Anorexorcist

Príspevok od užívateľa swiftas » 19 Máj 2007, 09:15

Intro/sloha:
A,A#,A# A,A#,A# A,A#,A# A,A#,G

Refrén:
C,C,H,B,G# C,C,H,B,G
Obrázok

Užívateľov profilový obrázok
swiftas
Registrovaní užívatelia
Príspevky: 221
Dátum registrácie: 10 Mar 2007, 20:11
Bydlisko: Nové Zámky
Kontaktovať užívateľa:

Nirvana - Baba O´riley

Príspevok od užívateľa swiftas » 19 Máj 2007, 09:15

Intro
:
2:9 10 12 10

Verse/Outro:E5 B5 A5
Obrázok

Užívateľov profilový obrázok
swiftas
Registrovaní užívatelia
Príspevky: 221
Dátum registrácie: 10 Mar 2007, 20:11
Bydlisko: Nové Zámky
Kontaktovať užívateľa:

Nirvana - Big Long Now

Príspevok od užívateľa swiftas » 19 Máj 2007, 09:15

intro+verse.



E -----------------

B -----------------

G -------------0---

D -----0-----------

A ---8---8---8---8-

E -9-------9-------



It's not cold enough
Please put his side up
She is moon gray

A#Can we Ashow ourG# faces now

I'm not in a string
She's not turning gray
Simple as it seems

A#Can we Ashow our G#faces now

D, C# Endless climb!
D, C# I am blGind
D, C# Why can I eat
D, C# Call a Glie
D, C# Speaking a phrase
D, C# Instantly gGrown
D, C# Lord I'm blind
D WaC#, G, F#, F, Fiting in line
Obrázok

Užívateľov profilový obrázok
swiftas
Registrovaní užívatelia
Príspevky: 221
Dátum registrácie: 10 Mar 2007, 20:11
Bydlisko: Nové Zámky
Kontaktovať užívateľa:

Nirvana - Big Long Now 2

Príspevok od užívateľa swiftas » 19 Máj 2007, 09:16

E ---------------

B ---------------

G -------------0- this is played over and over again. The unopen strings

D -----0--------- are played palm muted while the open string are played

A ---8---8---8--- normally.

E -9-------9-----





The song goes:

(Riff)
It~s not cold enough
Please put his side up
She is moon gray

B5Can we sA5how our fG#5aces now(Riff)

I~m not in a string
She~s not turning gray
Simple as it seems

B5Can we sA5how our fG#5aces now(Riff)

D5, C#5 Endless climb!
D5, C#5 I am blG5ind
D5, C#5 Why canUy I eat
D5, C#5 Call a G5lie
D5, C#5 Speaking a phrase
D5, C#5 Instantly gG5rown
D5, C#5 Lord I~m blind
D5 WaC#5, G5, F#5, F5, F5iting in line

(Riff)

This continues on for another verse and chorus and that is basically the
whole song.

The chords are:




E A D G B E

-----------

Bb5 6 8 8 x x x

A5 5 7 7 x x x

G#5 4 6 6 x x x

D5 x 5 7 7 x x

C#5 x 4 6 6 x x

G5 3 5 5 x x x

F#5 2 4 4 x x x

F5 1 3 3 x x x
Obrázok

Užívateľov profilový obrázok
swiftas
Registrovaní užívatelia
Príspevky: 221
Dátum registrácie: 10 Mar 2007, 20:11
Bydlisko: Nové Zámky
Kontaktovať užívateľa:

Nirvana - Breed

Príspevok od užívateľa swiftas » 19 Máj 2007, 09:16

F#5 se hraje na devátém pražci, D5 na 10 pražci, A5 na pátém pražci, C5 na 8 pražci, B5 na sedmém pražci!

Dá se to hrát i jinak, ale takhle to zní nejlíp! Doporučuju stejně jako u všech písní Nirvany podladit kytaru o půl tónu.



Intro: )

5: 4 4 4 7

6: 2 2 0 2 5 0

hrát 8x



riff:

4: 9 9 7



{F#5} riff

I don't care if I'm old

{F#5} riff

I don't mind if I don't have a mind

Get away, get away from your home

I'm afraid, I'm afraid of a ghost



{D5} {A5}

Even if you have

{C5} {B5}

Even if you need

I don't mean to stare

We don't have to breed

We can plant a house

We can build a tree

I don't even care

We could have all three

She said



... znovu intro a sloka
Obrázok

Užívateľov profilový obrázok
swiftas
Registrovaní užívatelia
Príspevky: 221
Dátum registrácie: 10 Mar 2007, 20:11
Bydlisko: Nové Zámky
Kontaktovať užívateľa:

Nirvana - Clean up before she comes

Príspevok od užívateľa swiftas » 19 Máj 2007, 09:17

intro/sloha:
Fclean up before she comes
living in a dusty town

prechod:
Fsomething in her eyes it G#must be smile from my Gmouth

®:
Gi must be gettin ColBder.....
Obrázok

Užívateľov profilový obrázok
swiftas
Registrovaní užívatelia
Príspevky: 221
Dátum registrácie: 10 Mar 2007, 20:11
Bydlisko: Nové Zámky
Kontaktovať užívateľa:

Nirvana - Come As You Are

Príspevok od užívateľa swiftas » 19 Máj 2007, 09:17

poznamka: podladit kytaru o pul tonu, to znamena, ze struna E bude znit jako Es atd.

sloka tabs:


Em D

G 0 0 2 2

D 2 2 2210 00 012



EmiCome as you D are
As you Emi were
As I Dwant you to Emi be
As a trend
As a friend
As an old enemy
Take your time
Hurry up
(The) choise is yours don't be late
As a friend
As a friend
As an old memoGria Emi
MemoGria Emi
Memoria
Memoria

Come dowsed in mud
soked in bleach
As I want you to be
As a friend
As a friend
As an old memoria
Memoria
Memoria
Memoria

And I C swear that I A don't have a C gun
No I A don't have a C gun
No I don't have a gun

mezihra - akordy jako sloka, na zaver zazpivat:
G...ria Emi
Memoria
Memoria
Memoria

Solo:


~ vibrato

4#



e--------------------------------------------

h--------------------------------------------

g--6-6-9-11~--6-6-9-11~-6-6-9-11-13~~~~--9-6-

d--------------------------------------------

a--------------------------------------------

e--------------------------------------------





And I C swear that I A don't have a C gun
No I A don't have a C gun
No I don't have a gun
No I don't have a gun
No I don't have a gun
No I don't have a gun

Emi, C memoria memoria...
Obrázok

Užívateľov profilový obrázok
swiftas
Registrovaní užívatelia
Príspevky: 221
Dátum registrácie: 10 Mar 2007, 20:11
Bydlisko: Nové Zámky
Kontaktovať užívateľa:

Nirvana - Come As You Are (unplugged)

Príspevok od užívateľa swiftas » 19 Máj 2007, 09:18

INTRO 4x:

E:--0-0-1-2--2-2-2-1-0-0-0---

A:----------0-0-------2---2--





sloha 8x: (popri hre spev :D )

E:--0-0-1-2--2-2-2-1-0-0-0---

A:----------0-0-------2---2--





1.Come as you are, as you were
As I want you to be
As a friend, as a trend
As an old enemy
Take your time, hurry up
The choice is yours, just don't be late
Take a rest as a friend
As an old enemF#my~~~~~~~aA
MemoF#ry~~~~~~~aA
MemoF#ry~~~~~~~aA
MemoF#ry~~~~~~~aA





sloha 4x: (popri hre spev :D )

E:--0-0-1-2--2-2-2-1-0-0-0---

A:----------0-0-------2---2--



2.Come doused in mud,

soaked in bleach

As I want you to be

As a trend, as a friend

As an old enemF#my~~~~~~~aA

MemoF#ry~~~~~~~aA

MemoF#ry~~~~~~~aA

MemoF#ry~~~~~~~aA





AHnd I sweDar that I Hdon't have a guDn

No, I Hdon't have a guDn

No, I Hdon't have a guDn





INTRO 4x:







E:--0-0-1-2--2-2-2-1-0-0-0---

A:----------0-0-------2---2--







*Solo* 4X:



E:------------------------------------------------------------------

A:------------------------------------------------------------------

D:------------------------------------------------------------------

G:--6---9---11-11--6---9---11-11--6---9---11-11--13-13-13--11---8-8-

B:------------------------------------------------------------------

E:------------------------------------------------------------------









MemoF#ry~~~~~~~aA

MemoF#ry~~~~~~~aA

MemoF#ry~~~~~~~aA

MemoF#ry~~~~~~~aA





AHnd I sweDar that I Hdon't have a guDn

No, I Hdon't have a guDn

No, I Hdon't have a guDn

No, I Hdon't have a guDn

No, I Hdon't have a guDn

No, I Hdon't have a guDn



END 5x:







E:--0-0-1-2--2-2-2-1-0-0-0---

A:----------0-0-------2---2--







F#







...dufam,že je to dobre :)
Obrázok

Užívateľov profilový obrázok
swiftas
Registrovaní užívatelia
Príspevky: 221
Dátum registrácie: 10 Mar 2007, 20:11
Bydlisko: Nové Zámky
Kontaktovať užívateľa:

Nirvana - Dimension Seven /D-7/

Príspevok od užívateľa swiftas » 19 Máj 2007, 09:19

E5 - 022xxx

F5 - 133xxx

G5 - 355xxx

A5 - x022xx

C5 - x355xx



ticha časť 1

4: 2 0 2 0 2 0

5: 2 2 3 3 2 2 3 3 2 2 3 3

6: 0 1 0 1 0 1



ticha časť 2

3: 2 0 2 0 2 0

4: 2 2 3 3 2 2 3 3 2 2 3 3

6: 0 1 0 1 0 1



hlasna časť



1: E5 F5 G5 F5

2: A5 A#5 C5

1: E5 F5 G5 F5



ticha časť 1

Straight as an arrow

Defect defect

Not straight, not so straight

Reject reject

ticha časť 2

Towards anti-social

Solo solo

ticha časť 1

Standing on the stairs

Cold, cold morning

Ghostly image of fear

Mayday mayday

ticha časť 2

Gonna leave this region

They'll take me with them

ticha časť 1

Dimension seven





pozn: meňte to aj tak pri hlasnej časti
Obrázok

Užívateľov profilový obrázok
swiftas
Registrovaní užívatelia
Príspevky: 221
Dátum registrácie: 10 Mar 2007, 20:11
Bydlisko: Nové Zámky
Kontaktovať užívateľa:

Nirvana - Do Re Mi

Príspevok od užívateľa swiftas » 19 Máj 2007, 09:20

DIf I may
F#miIf I might
B#milay me downE weeping

If I say
What is like
I might be dreaming

If I may
What is right
So many time, see me heal
Bridge:
A G B
Those years in his vomit
A phrase from his pocket
And chains holding the wind, I won't be
Ref:
F#miDream D
Do re mi

If I may
If I'm right
wake me up, see me

If I do
If I like
Find me how to see me

If I may
Cold as ice
I may, how to see me

Raised in his socket
It fades from his moment
A chase from his socket I will need

Ray
Dream
Do re mi
Do re mi
Do re mi
Do re mi

Wish me good
Wish me light
Break me down, see me

In your way
Just be quiet
Follow pain & bleed me

Yell or wail
And if I sigh
Sink me how, TV

If I may
And if I might
Gonna go, to Bleed

Praise in his pocket
Praise from his moment
A chase from his own in my tea

Ray
Dream
Rape Me
Don't rape me
Do re mi
Do re mi
Don't rape me
Do re mi
Obrázok

Napísať odpoveď

Kto je prítomný

Užívatelia prezerajúci toto fórum: Žiadny pripojení užívatelia a 1 neregistrovaný